  0
SECTION
  2
HEADER
  9
$ACADVER
  1
AC1009
  9
$INSBASE
 10
0.0
 20
0.0
 30
0.0
  9
$EXTMIN
 10
-400.05492744973748
 20
-822.21889389555497
 30
-0.0015258207003583
  9
$EXTMAX
 10
1400.05493583164
 20
1854.0817500700839
 30
0.0000000349246037
  9
$LIMMIN
 10
0.0
 20
0.0
  9
$LIMMAX
 10
0.0
 20
0.0
  9
$ORTHOMODE
 70
     0
  9
$REGENMODE
 70
     1
  9
$FILLMODE
 70
     1
  9
$QTEXTMODE
 70
     0
  9
$MIRRTEXT
 70
     1
  9
$DRAGMODE
 70
     2
  9
$LTSCALE
 40
50.799999999999997
  9
$OSMODE
 70
   231
  9
$ATTMODE
 70
     1
  9
$TEXTSIZE
 40
0.0
  9
$TRACEWID
 40
1.0
  9
$TEXTSTYLE
  7
STANDARD
  9
$CLAYER
  8
DATA
  9
$CELTYPE
  6
BYLAYER
  9
$CECOLOR
 62
   256
  9
$DIMSCALE
 40
1.0
  9
$DIMASZ
 40
0.18
  9
$DIMEXO
 40
0.0625
  9
$DIMDLI
 40
0.38
  9
$DIMRND
 40
0.0
  9
$DIMDLE
 40
0.0
  9
$DIMEXE
 40
0.18
  9
$DIMTP
 40
0.0
  9
$DIMTM
 40
0.0
  9
$DIMTXT
 40
0.18
  9
$DIMCEN
 40
0.09
  9
$DIMTSZ
 40
0.0
  9
$DIMTOL
 70
     0
  9
$DIMLIM
 70
     0
  9
$DIMTIH
 70
     1
  9
$DIMTOH
 70
     1
  9
$DIMSE1
 70
     0
  9
$DIMSE2
 70
     0
  9
$DIMTAD
 70
     0
  9
$DIMZIN
 70
     0
  9
$DIMBLK
  1

  9
$DIMASO
 70
     1
  9
$DIMSHO
 70
     1
  9
$DIMPOST
  1

  9
$DIMAPOST
  1

  9
$DIMALT
 70
     0
  9
$DIMALTD
 70
     2
  9
$DIMALTF
 40
25.399999999999999
  9
$DIMLFAC
 40
1.0
  9
$DIMTOFL
 70
     0
  9
$DIMTVP
 40
0.0
  9
$DIMTIX
 70
     0
  9
$DIMSOXD
 70
     0
  9
$DIMSAH
 70
     0
  9
$DIMBLK1
  1

  9
$DIMBLK2
  1

  9
$DIMSTYLE
  2
STANDARD
  9
$DIMCLRD
 70
     0
  9
$DIMCLRE
 70
     0
  9
$DIMCLRT
 70
     0
  9
$DIMTFAC
 40
1.0
  9
$DIMGAP
 40
0.09
  9
$LUNITS
 70
     2
  9
$LUPREC
 70
     4
  9
$SKETCHINC
 40
0.1
  9
$FILLETRAD
 40
0.0
  9
$AUNITS
 70
     0
  9
$AUPREC
 70
     0
  9
$MENU
  1
acad
  9
$ELEVATION
 40
0.0
  9
$PELEVATION
 40
0.0
  9
$THICKNESS
 40
0.0
  9
$LIMCHECK
 70
     0
  9
$BLIPMODE
 70
     0
  9
$CHAMFERA
 40
0.0
  9
$CHAMFERB
 40
0.0
  9
$SKPOLY
 70
     0
  9
$TDCREATE
 40
2454784.6697800928
  9
$TDUPDATE
 40
2454784.7209903589
  9
$TDINDWG
 40
0.0009384375
  9
$TDUSRTIMER
 40
0.0008969097
  9
$USRTIMER
 70
     1
  9
$ANGBASE
 50
0.0
  9
$ANGDIR
 70
     0
  9
$PDMODE
 70
     1
  9
$PDSIZE
 40
-2.0
  9
$PLINEWID
 40
0.0
  9
$COORDS
 70
     1
  9
$SPLFRAME
 70
     0
  9
$SPLINETYPE
 70
     6
  9
$SPLINESEGS
 70
     8
  9
$ATTDIA
 70
     0
  9
$ATTREQ
 70
     1
  9
$HANDLING
 70
     1
  9
$HANDSEED
  5
1C1
  9
$SURFTAB1
 70
     6
  9
$SURFTAB2
 70
     6
  9
$SURFTYPE
 70
     6
  9
$SURFU
 70
     6
  9
$SURFV
 70
     6
  9
$UCSNAME
  2

  9
$UCSORG
 10
0.0
 20
0.0
 30
0.0
  9
$UCSXDIR
 10
1.0
 20
0.0
 30
0.0
  9
$UCSYDIR
 10
0.0
 20
1.0
 30
0.0
  9
$PUCSNAME
  2

  9
$PUCSORG
 10
0.0
 20
0.0
 30
0.0
  9
$PUCSXDIR
 10
1.0
 20
0.0
 30
0.0
  9
$PUCSYDIR
 10
0.0
 20
1.0
 30
0.0
  9
$USERI1
 70
     0
  9
$USERI2
 70
     0
  9
$USERI3
 70
     0
  9
$USERI4
 70
     0
  9
$USERI5
 70
     0
  9
$USERR1
 40
0.0
  9
$USERR2
 40
0.0
  9
$USERR3
 40
0.0
  9
$USERR4
 40
0.0
  9
$USERR5
 40
0.0
  9
$WORLDVIEW
 70
     1
  9
$SHADEDGE
 70
     3
  9
$SHADEDIF
 70
    70
  9
$TILEMODE
 70
     1
  9
$MAXACTVP
 70
    64
  9
$PLIMCHECK
 70
     0
  9
$PEXTMIN
 10
1.0000000000000000E+020
 20
1.0000000000000000E+020
 30
1.0000000000000000E+020
  9
$PEXTMAX
 10
-1.0000000000000000E+020
 20
-1.0000000000000000E+020
 30
-1.0000000000000000E+020
  9
$PLIMMIN
 10
0.0
 20
0.0
  9
$PLIMMAX
 10
12.0
 20
9.0
  9
$UNITMODE
 70
     0
  9
$VISRETAIN
 70
     0
  9
$PLINEGEN
 70
     1
  9
$PSLTSCALE
 70
     0
  0
ENDSEC
  0
SECTION
  2
TABLES
  0
TABLE
  2
VPORT
 70
     1
  0
VPORT
  2
*ACTIVE
 70
     0
 10
0.0
 20
0.0
 11
1.0
 21
1.0
 12
500.00000419095147
 22
515.93142808726441
 13
0.0
 23
0.0
 14
1.0
 24
1.0
 15
0.0
 25
0.0
 16
0.0
 26
0.0
 36
1.0
 17
0.0
 27
0.0
 37
0.0
 40
2698.4493389501822
 41
1.665745856353591
 42
50.0
 43
0.0
 44
0.0
 50
0.0
 51
0.0
 71
     0
 72
  2000
 73
     1
 74
     1
 75
     0
 76
     0
 77
     0
 78
     0
  0
ENDTAB
  0
TABLE
  2
LTYPE
 70
    11
  0
LTYPE
  2
CONTINUOUS
 70
     0
  3
Solid line
 72
    65
 73
     0
 40
0.0
  0
ENDTAB
  0
TABLE
  2
LAYER
 70
     5
  0
LAYER
  2
0
 70
     0
 62
     7
  6
CONTINUOUS
  0
LAYER
  2
DATA
 70
     0
 62
     7
  6
CONTINUOUS
  0
LAYER
  2
HIBINO-BASE
 70
     0
 62
     7
  6
CONTINUOUS
  0
LAYER
  2
SPEC
 70
     0
 62
     7
  6
CONTINUOUS
  0
LAYER
  2
DIMNSIONS
 70
     0
 62
     7
  6
CONTINUOUS
  0
ENDTAB
  0
TABLE
  2
STYLE
 70
     3
  0
STYLE
  2
STANDARD
 70
     0
 40
0.0
 41
1.0
 50
0.0
 71
     0
 42
0.0
  3
txt
  4
BIGFONT.SHX
  0
ENDTAB
  0
TABLE
  2
VIEW
 70
     0
  0
ENDTAB
  0
TABLE
  2
UCS
 70
     0
  0
ENDTAB
  0
TABLE
  2
APPID
 70
     3
  0
APPID
  2
ACAD
 70
     0
  0
APPID
  2
ACADANNOTATIVE
 70
     0
  0
APPID
  2
ACAD_MLEADERVER
 70
     0
  0
ENDTAB
  0
TABLE
  2
DIMSTYLE
 70
     2
  0
DIMSTYLE
  2
STANDARD
 70
     0
  3

  4

  5

  6

  7

 40
1.0
 41
0.18
 42
0.0625
 43
0.38
 44
0.18
 45
0.0
 46
0.0
 47
0.0
 48
0.0
140
0.18
141
0.09
142
0.0
143
25.399999999999999
144
1.0
145
0.0
146
1.0
147
0.09
 71
     0
 72
     0
 73
     1
 74
     1
 75
     0
 76
     0
 77
     0
 78
     0
170
     0
171
     2
172
     0
173
     0
174
     0
175
     0
176
     0
177
     0
178
     0
  0
ENDTAB
  0
ENDSEC
  0
SECTION
  2
BLOCKS
  0
BLOCK
  8
0
  2
$MODEL_SPACE
 70
     0
 10
0.0
 20
0.0
 30
0.0
  3
$MODEL_SPACE
  1

  0
ENDBLK
  5
18A
  8
0
  0
BLOCK
 67
     1
  8
0
  2
$PAPER_SPACE
 70
     0
 10
0.0
 20
0.0
 30
0.0
  3
$PAPER_SPACE
  1

  0
ENDBLK
  5
186
 67
     1
  8
0
  0
ENDSEC
  0
SECTION
  2
ENTITIES
  0
LINE
  5
2C
  8
HIBINO-BASE
  6
CONTINUOUS
 62
     7
 10
-400.0
 20
1854.0002425
 30
0.0
 11
1400.0
 21
1854.0002425
 31
0.0
  0
LINE
  5
2D
  8
HIBINO-BASE
  6
CONTINUOUS
 62
     7
 10
1400.0
 20
-745.99975749999987
 30
0.0
 11
-400.0
 21
-745.99975749999987
 31
0.0
  0
LINE
  5
2E
  8
HIBINO-BASE
  6
CONTINUOUS
 62
     7
 10
-400.0
 20
-745.99975749999987
 30
0.0
 11
-400.0
 21
1854.0002425
 31
0.0
  0
TEXT
  5
2F
  8
HIBINO-BASE
 62
     7
 10
-328.1599999999998
 20
-810.08653549999963
 30
0.0
 40
36.000441796874988
  1
Hibino Corporation
 41
0.7
 11
-328.1599999999998
 21
-774.08609370312456
 31
0.0
 73
     3
  0
LINE
  5
30
  8
HIBINO-BASE
  6
CONTINUOUS
 62
     7
 10
1400.0
 20
1854.0002425
 30
0.0
 11
1400.0
 21
-745.99975749999987
 31
0.0
  0
LINE
  5
31
  8
HIBINO-BASE
  6
CONTINUOUS
 62
     7
 10
500.0
 20
-520.99975749999987
 30
0.0
 11
1400.0
 21
-520.99975749999987
 31
0.0
  0
LINE
  5
32
  8
HIBINO-BASE
  6
CONTINUOUS
 62
     7
 10
500.0
 20
-745.99975749999987
 30
0.0
 11
500.0
 21
-520.99975749999987
 31
0.0
  0
TEXT
  5
33
  8
HIBINO-BASE
 62
     7
 10
509.0
 20
-546.08669083333325
 30
0.0
 40
16.288411458333329
  1
NOTE
 41
0.7
 11
509.0
 21
-529.79827937499988
 31
0.0
 73
     3
  0
LINE
  5
34
  8
HIBINO-BASE
  6
CONTINUOUS
 62
     7
 10
850.0
 20
-745.99975749999987
 30
0.0
 11
850.0
 21
-520.99975749999987
 31
0.0
  0
TEXT
  5
35
  8
HIBINO-BASE
 62
     7
 10
859.0
 20
-546.08669083333325
 30
0.0
 40
16.288411458333329
  1
TITLE
 41
0.7
 11
859.0
 21
-529.79827937499988
 31
0.0
 73
     3
  0
TEXT
  5
36
  8
HIBINO-BASE
 62
     7
 10
1000.6839
 20
-810.08653549999963
 30
0.0
 40
36.000441796874988
  1
ヒビノ株式会社
 41
0.7
 11
1000.6839
 21
-774.08609370312456
 31
0.0
 73
     3
  0
LINE
  5
37
  8
HIBINO-BASE
  6
CONTINUOUS
 62
     7
 10
500.0
 20
-645.99975749999987
 30
0.0
 11
1400.0
 21
-645.99975749999987
 31
0.0
  0
TEXT
  5
38
  8
HIBINO-BASE
 62
     7
 10
984.0
 20
-670.5234908333332
 30
0.0
 40
16.288411458333329
  1
DRAWN
 41
0.7
 11
984.0
 21
-654.23507937499983
 31
0.0
 73
     3
  0
TEXT
  5
39
  8
HIBINO-BASE
 62
     7
 10
734.0
 20
-670.5234908333332
 30
0.0
 40
16.288411458333329
  1
DATE
 41
0.7
 11
734.0
 21
-654.23507937499983
 31
0.0
 73
     3
  0
TEXT
  5
3A
  8
HIBINO-BASE
 62
     7
 10
634.0
 20
-670.5234908333332
 30
0.0
 40
16.288411458333329
  1
SCALE
 41
0.7
 11
634.0
 21
-654.23507937499983
 31
0.0
 73
     3
  0
TEXT
  5
3B
  8
HIBINO-BASE
 62
     7
 10
859.0
 20
-670.5234908333332
 30
0.0
 40
16.288411458333329
  1
DESIGN
 41
0.7
 11
859.0
 21
-654.23507937499983
 31
0.0
 73
     3
  0
TEXT
  5
3C
  8
HIBINO-BASE
 62
     7
 10
1234.0
 20
-670.5234908333332
 30
0.0
 40
16.288411458333329
  1
DRAWING NO.
 41
0.7
 11
1234.0
 21
-654.23507937499983
 31
0.0
 73
     3
  0
TEXT
  5
3D
  8
HIBINO-BASE
 62
     7
 10
1109.0
 20
-670.5234908333332
 30
0.0
 40
16.288411458333329
  1
CHECK
 41
0.7
 11
1109.0
 21
-654.23507937499983
 31
0.0
 73
     3
  0
LINE
  5
3E
  8
HIBINO-BASE
  6
CONTINUOUS
 62
     7
 10
643.75
 20
-733.49975749999987
 30
0.0
 11
681.25
 21
-695.99975749999987
 31
0.0
  0
TEXT
  5
3F
  8
HIBINO-BASE
 62
     7
 10
637.5
 20
-707.08919083333308
 30
0.0
 40
16.288411458333329
  1
1
 41
0.7
 11
637.5
 21
-690.80077937499982
 31
0.0
 73
     3
  0
LINE
  5
40
  8
HIBINO-BASE
  6
CONTINUOUS
 62
     7
 10
625.0
 20
-745.99975749999987
 30
0.0
 11
625.0
 21
-645.99975749999987
 31
0.0
  0
LINE
  5
41
  8
HIBINO-BASE
  6
CONTINUOUS
 62
     7
 10
725.0
 20
-745.99975749999987
 30
0.0
 11
725.0
 21
-645.99975749999987
 31
0.0
  0
LINE
  5
42
  8
HIBINO-BASE
  6
CONTINUOUS
 62
     7
 10
975.0
 20
-645.99975749999987
 30
0.0
 11
975.0
 21
-745.99975749999987
 31
0.0
  0
LINE
  5
43
  8
HIBINO-BASE
  6
CONTINUOUS
 62
     7
 10
1225.0
 20
-645.99975749999987
 30
0.0
 11
1225.0
 21
-745.99975749999987
 31
0.0
  0
LINE
  5
44
  8
HIBINO-BASE
  6
CONTINUOUS
 62
     7
 10
1100.0
 20
-745.99975749999987
 30
0.0
 11
1100.0
 21
-645.99975749999987
 31
0.0
  0
TEXT
  5
45
  8
HIBINO-BASE
 62
     7
 10
733.56539999999984
 20
-717.36329083333339
 30
0.0
 40
16.288411458333329
  1
'08.10.
 41
0.7
 11
733.56539999999984
 21
-701.07487937500002
 31
0.0
 73
     3
  0
TEXT
  5
46
  8
HIBINO-BASE
 62
     7
 10
675.0
 20
-725.83919083333308
 30
0.0
 40
16.288411458333329
  1
10
 41
0.7
 11
675.0
 21
-709.55077937499982
 31
0.0
 73
     3
  0
TEXT
  5
47
  8
HIBINO-BASE
 62
     7
 10
990.05810011034623
 20
-717.36329083333339
 30
0.0
 40
16.288411458333329
  1
N.Sasaki
 41
0.7
 11
990.05810011034623
 21
-701.07487937500002
 31
0.0
 73
     3
  0
TEXT
  5
48
  8
HIBINO-BASE
 62
     7
 10
538.83333333333337
 20
-726.23975750000011
 30
0.0
 40
32.576822916666671
  1
A4
 41
0.7
 11
538.83333333333337
 21
-693.66293458333348
 31
0.0
 73
     3
  0
TEXT
  5
49
  8
HIBINO-BASE
 62
     7
 10
509.5833333333332
 20
-672.19430749999981
 30
0.0
 40
16.288411458333329
  1
PAPER SIZE
 41
0.7
 11
509.5833333333332
 21
-655.90589604166644
 31
0.0
 73
     3
  0
TEXT
  5
4A
  8
SPEC
 62
     7
 10
-312.49999999999989
 20
1767.9329424999989
 30
0.0
 40
24.4326171875
  1
仕様
 41
0.7
 11
-312.49999999999989
 21
1792.3655596874989
 31
0.0
 73
     3
  0
TEXT
  5
4B
  8
SPEC
 62
     7
 10
60.593490961347023
 20
1244.3794202777781
 30
0.0
 40
19.003146701388889
  1
LF:80Hz,±15dB,シェルビング
 41
0.7
 11
60.593490961347023
 21
1263.3825669791661
 31
0.0
 73
     3
  0
TEXT
  5
4C
  8
SPEC
 62
     7
 10
-316.0
 20
1725.2133899222131
 30
0.0
 40
19.003146701388889
  1
周波数特性
 41
0.7
 11
-316.0
 21
1744.216536623602
 31
0.0
 73
     3
  0
TEXT
  5
4D
  8
SPEC
 62
     7
 10
-316.0
 20
1610.8369582222331
 30
0.0
 40
19.003146701388889
  1
最大入力信号レベル
 41
0.7
 11
-316.0
 21
1629.840104923622
 31
0.0
 73
     3
  0
TEXT
  5
4E
  8
SPEC
 62
     7
 10
-316.0
 20
1506.8794202777781
 30
0.0
 40
19.003146701388889
  1
インピーダンス
 41
0.7
 11
-316.0
 21
1525.882566979167
 31
0.0
 73
     3
  0
TEXT
  5
4F
  8
SPEC
 62
     7
 10
-316.0
 20
1688.338867155539
 30
0.0
 40
19.003146701388889
  1
マイク等価入力ノイズ(150Ω)
 41
0.7
 11
-316.0
 21
1707.3420138569279
 31
0.0
 73
     3
  0
TEXT
  5
50
  8
SPEC
 62
     7
 10
-316.0
 20
1650.630374744431
 30
0.0
 40
19.003146701388889
  1
THD+N(1kHz)
 41
0.7
 11
-316.0
 21
1669.63352144582
 31
0.0
 73
     3
  0
TEXT
  5
51
  8
SPEC
 62
     7
 10
-316.0
 20
1320.260445664861
 30
0.0
 40
19.003146701388889
  1
イコライザ－
 41
0.7
 11
-316.0
 21
1339.263592366249
 31
0.0
 73
     3
  0
TEXT
  5
52
  8
SPEC
 62
     7
 10
60.593490961347023
 20
1611.8794202777781
 30
0.0
 40
19.003146701388889
  1
マイク入力:+20dBu
 41
0.7
 11
60.593490961347023
 21
1630.8825669791661
 31
0.0
 73
     3
  0
TEXT
  5
53
  8
SPEC
 62
     7
 10
60.593490961347023
 20
1579.3791155158719
 30
0.0
 40
19.003146701388889
  1
ライン入力:+30dBu
 41
0.7
 11
60.593490961347023
 21
1598.3822622172611
 31
0.0
 73
     3
  0
TEXT
  5
54
  8
SPEC
 62
     7
 10
59.97213378243476
 20
1724.7936806192749
 30
0.0
 40
19.003146701388889
  1
20Hz～20kHz(±1dB)
 41
0.7
 11
59.97213378243476
 21
1743.7968273206641
 31
0.0
 73
     3
  0
TEXT
  5
55
  8
SPEC
 62
     7
 10
60.593490961347023
 20
1687.7079187385491
 30
0.0
 40
19.003146701388889
  1
-128dBu
 41
0.7
 11
60.593490961347023
 21
1706.711065439938
 31
0.0
 73
     3
  0
TEXT
  5
56
  8
SPEC
 62
     7
 10
60.593490961347023
 20
1651.7263145450099
 30
0.0
 40
19.003146701388889
  1
0.09%%%以下(+14dBu)
 41
0.7
 11
60.593490961347023
 21
1670.7294612463979
 31
0.0
 73
     3
  0
TEXT
  5
57
  8
SPEC
 62
     7
 10
60.593490961347023
 20
1506.8794202777781
 30
0.0
 40
19.003146701388889
  1
マイク入力:1.8kΩ
 41
0.7
 11
60.593490961347023
 21
1525.882566979167
 31
0.0
 73
     3
  0
TEXT
  5
58
  8
SPEC
 62
     7
 10
60.593490961347023
 20
1474.3791155158719
 30
0.0
 40
19.003146701388889
  1
ライン入力:18kΩ
 41
0.7
 11
60.593490961347023
 21
1493.3822622172611
 31
0.0
 73
     3
  0
TEXT
  5
59
  8
SPEC
 62
     7
 10
-316.0
 20
1131.8794202777769
 30
0.0
 40
19.003146701388889
  1
電源
 41
0.7
 11
-316.0
 21
1150.8825669791661
 31
0.0
 73
     3
  0
TEXT
  5
5A
  8
SPEC
 62
     7
 10
60.593490961347023
 20
1132.703298744733
 30
0.0
 40
19.003146701388889
  1
AC100V,50/60Hz,40W未満
 41
0.7
 11
60.593490961347023
 21
1151.706445446122
 31
0.0
 73
     3
  0
LINE
  5
5B
  8
SPEC
  6
CONTINUOUS
 62
     7
 10
-324.99999999999989
 20
1754.0002425
 30
0.0
 11
1100.0
 21
1754.0002425
 31
0.0
  0
LINE
  5
5C
  8
SPEC
  6
CONTINUOUS
 62
     7
 10
-324.99999999999989
 20
1716.5002424999991
 30
0.0
 11
1100.0
 21
1716.5002424999991
 31
0.0
  0
LINE
  5
5D
  8
SPEC
  6
CONTINUOUS
 62
     7
 10
-324.99999999999989
 20
1536.5002425
 30
0.0
 11
1100.0
 21
1536.5002425
 31
0.0
  0
LINE
  5
5E
  8
SPEC
  6
CONTINUOUS
 62
     7
 10
-324.99999999999989
 20
1641.5002425
 30
0.0
 11
1100.0
 21
1641.5002425
 31
0.0
  0
LINE
  5
5F
  8
SPEC
  6
CONTINUOUS
 62
     7
 10
-324.99999999999989
 20
1679.0002425
 30
0.0
 11
1100.0
 21
1679.0002425
 31
0.0
  0
LINE
  5
60
  8
SPEC
  6
CONTINUOUS
 62
     7
 10
50.0
 20
1274.0002425
 30
0.0
 11
1100.0
 21
1274.0002425
 31
0.0
  0
LINE
  5
61
  8
SPEC
  6
CONTINUOUS
 62
     7
 10
-324.99999999999989
 20
1236.5002425
 30
0.0
 11
1100.0
 21
1236.5002425
 31
0.0
  0
TEXT
  5
62
  8
SPEC
 62
     7
 10
-317.88063368841881
 20
1206.8794202777769
 30
0.0
 40
19.003146701388889
  1
バイパスフィルター
 41
0.7
 11
-317.88063368841881
 21
1225.8825669791661
 31
0.0
 73
     3
  0
TEXT
  5
63
  8
SPEC
 62
     7
 10
60.593490961347023
 20
1207.8045860862219
 30
0.0
 40
19.003146701388889
  1
100Hz,18dB/oct
 41
0.7
 11
60.593490961347023
 21
1226.807732787611
 31
0.0
 73
     3
  0
TEXT
  5
64
  8
SPEC
 62
     7
 10
-316.0
 20
1094.3794202777769
 30
0.0
 40
19.003146701388889
  1
寸法 / 質量
 41
0.7
 11
-316.0
 21
1113.3825669791661
 31
0.0
 73
     3
  0
TEXT
  5
65
  8
SPEC
 62
     7
 10
60.593490961347023
 20
1096.090679042218
 30
0.0
 40
19.003146701388889
  1
443(W)×152(H)×443(D)mm(つまみ・フェーダ除く) / 約9.8kg
 41
0.7
 11
60.593490961347023
 21
1115.0938257436071
 31
0.0
 73
     3
  0
TEXT
  5
66
  8
SPEC
 62
     7
 10
60.593490961347023
 20
1546.8791155158719
 30
0.0
 40
19.003146701388889
  1
ステレオリタ-ン入力:+20dBu
 41
0.7
 11
60.593490961347023
 21
1565.8822622172611
 31
0.0
 73
     3
  0
LINE
  5
67
  8
SPEC
  6
CONTINUOUS
 62
     7
 10
50.0
 20
1386.5002425
 30
0.0
 11
1100.0
 21
1386.5002425
 31
0.0
  0
LINE
  5
68
  8
SPEC
  6
CONTINUOUS
 62
     7
 10
-324.99999999999989
 20
1349.0002425
 30
0.0
 11
1100.0
 21
1349.0002425
 31
0.0
  0
LINE
  5
69
  8
SPEC
  6
CONTINUOUS
 62
     7
 10
50.0
 20
1274.0002425
 30
0.0
 11
1100.0
 21
1274.0002425
 31
0.0
  0
TEXT
  5
6A
  8
SPEC
 62
     7
 10
-316.0
 20
1394.956873060255
 30
0.0
 40
19.003146701388889
  1
クロストーク
 41
0.7
 11
-316.0
 21
1413.960019761643
 31
0.0
 73
     3
  0
TEXT
  5
6B
  8
SPEC
 62
     7
 10
60.593490961347023
 20
1394.3794202777781
 30
0.0
 40
19.003146701388889
  1
チャンネルミュート:90dB以下
 41
0.7
 11
60.593490961347023
 21
1413.382566979167
 31
0.0
 73
     3
  0
TEXT
  5
6C
  8
SPEC
 62
     7
 10
60.593490961347023
 20
1357.4989892907799
 30
0.0
 40
19.003146701388889
  1
フェーダーしぼりきり:88dB以下
 41
0.7
 11
60.593490961347023
 21
1376.5021359921691
 31
0.0
 73
     3
  0
TEXT
  5
6D
  8
SPEC
 62
     7
 10
60.593490961347023
 20
1319.3794202777769
 30
0.0
 40
19.003146701388889
  1
HF:12kHz,±15dB,シェルビング
 41
0.7
 11
60.593490961347023
 21
1338.3825669791661
 31
0.0
 73
     3
  0
LINE
  5
6E
  8
SPEC
  6
CONTINUOUS
 62
     7
 10
-324.99999999999989
 20
1420.0002425
 30
0.0
 11
1100.0
 21
1420.0002425
 31
0.0
  0
LINE
  5
6F
  8
SPEC
  6
CONTINUOUS
 62
     7
 10
50.0
 20
1311.5002425
 30
0.0
 11
1100.0
 21
1311.5002425
 31
0.0
  0
TEXT
  5
70
  8
SPEC
 62
     7
 10
60.593490961347023
 20
1281.8794202777781
 30
0.0
 40
19.003146701388889
  1
MF:150Hz～3.5kHz,±15dB,ピーキング(Q＝1.5)
 41
0.7
 11
60.593490961347023
 21
1300.8825669791661
 31
0.0
 73
     3
  0
TEXT
  5
71
  8
SPEC
 62
     7
 10
-317.88063368841881
 20
1169.3794202777781
 30
0.0
 40
19.003146701388889
  1
ファンタム電源の切替方法
 41
0.7
 11
-317.88063368841881
 21
1188.3825669791661
 31
0.0
 73
     3
  0
TEXT
  5
72
  8
SPEC
 62
     7
 10
60.593490961347023
 20
1170.3045860862219
 30
0.0
 40
19.003146701388889
  1
8チャンネル毎に一括
 41
0.7
 11
60.593490961347023
 21
1189.307732787611
 31
0.0
 73
     3
  0
LINE
  5
73
  8
SPEC
  6
CONTINUOUS
 62
     7
 10
-324.99999999999989
 20
1754.0002425
 30
0.0
 11
-324.99999999999989
 21
1086.5002425
 31
0.0
  0
LINE
  5
74
  8
SPEC
  6
CONTINUOUS
 62
     7
 10
1100.0
 20
1754.0002425
 30
0.0
 11
1100.0
 21
1086.5002425
 31
0.0
  0
LINE
  5
75
  8
SPEC
  6
CONTINUOUS
 62
     7
 10
50.0
 20
1754.0002425
 30
0.0
 11
50.0
 21
1086.5002425
 31
0.0
  0
TEXT
  5
76
  8
SPEC
 62
     7
 10
60.593490961347023
 20
1436.8791155158719
 30
0.0
 40
19.003146701388889
  1
ステレオリタ-ン入力:65kΩ(ステレオ),35kΩ(モノラル)
 41
0.7
 11
60.593490961347023
 21
1455.8822622172611
 31
0.0
 73
     3
  0
LINE
  5
77
  8
SPEC
  6
CONTINUOUS
 62
     7
 10
-324.99999999999989
 20
1199.0002425
 30
0.0
 11
1100.0
 21
1199.0002425
 31
0.0
  0
LINE
  5
78
  8
SPEC
  6
CONTINUOUS
 62
     7
 10
-324.99999999999989
 20
1161.5002425
 30
0.0
 11
1100.0
 21
1161.5002425
 31
0.0
  0
LINE
  5
79
  8
SPEC
  6
CONTINUOUS
 62
     7
 10
-324.99999999999989
 20
1124.0002425
 30
0.0
 11
1100.0
 21
1124.0002425
 31
0.0
  0
LINE
  5
7A
  8
SPEC
  6
CONTINUOUS
 62
     7
 10
-324.99999999999989
 20
1086.5002425
 30
0.0
 11
1100.0
 21
1086.5002425
 31
0.0
  0
TEXT
  5
7B
  8
DIMNSIONS
 62
     7
 10
300.0
 20
-623.30485750000014
 30
0.0
 40
24.4326171875
  1
(単位：mm)
 41
0.7
 11
300.0
 21
-598.87224031250014
 31
0.0
 73
     3
  0
LINE
  5
7C
  8
DIMNSIONS
  6
CONTINUOUS
 62
     7
 10
180.00000000001171
 20
-100.0
 30
0.0
 11
30.0
 21
-100.0
 31
0.0
  0
LINE
  5
7D
  8
DIMNSIONS
  6
CONTINUOUS
 62
     7
 10
180.00000000001171
 20
343.0
 30
0.0
 11
30.0
 21
343.0
 31
0.0
  0
LINE
  5
7E
  8
DIMNSIONS
  6
CONTINUOUS
 62
     7
 10
50.0
 20
-100.0
 30
0.0
 11
50.0
 21
343.0
 31
0.0
  0
LINE
  5
7F
  8
DIMNSIONS
  6
CONTINUOUS
 62
     7
 10
50.0
 20
-100.0
 30
0.0
 11
43.299602048497533
 21
-74.9937744140625
 31
0.0
  0
LINE
  5
80
  8
DIMNSIONS
  6
CONTINUOUS
 62
     7
 10
50.0
 20
-100.0
 30
0.0
 11
56.70039795150246
 21
-74.9937744140625
 31
0.0
  0
LINE
  5
81
  8
DIMNSIONS
  6
CONTINUOUS
 62
     7
 10
50.0
 20
343.0
 30
0.0
 11
56.70039795150246
 21
317.9937744140625
 31
0.0
  0
LINE
  5
82
  8
DIMNSIONS
  6
CONTINUOUS
 62
     7
 10
50.0
 20
343.0
 30
0.0
 11
43.299602048497533
 21
317.9937744140625
 31
0.0
  0
TEXT
  5
83
  8
DIMNSIONS
 62
     7
 10
40.061111111111138
 20
95.041666666666643
 30
0.0
 40
27.147352430555561
  1
443
 50
90.0
 41
0.7
 11
12.91375868055558
 21
95.041666666666643
 31
0.0
 73
     3
  0
LINE
  5
84
  8
DIMNSIONS
  6
CONTINUOUS
 62
     7
 10
200.00000000001171
 20
-120.0
 30
0.0
 11
200.00000000001171
 21
-270.0
 31
0.0
  0
LINE
  5
85
  8
DIMNSIONS
  6
CONTINUOUS
 62
     7
 10
643.0000000000116
 20
-120.0
 30
0.0
 11
643.0000000000116
 21
-270.0
 31
0.0
  0
LINE
  5
86
  8
DIMNSIONS
  6
CONTINUOUS
 62
     7
 10
200.00000000001171
 20
-250.0
 30
0.0
 11
643.0000000000116
 21
-250.0
 31
0.0
  0
LINE
  5
87
  8
DIMNSIONS
  6
CONTINUOUS
 62
     7
 10
200.00000000001171
 20
-250.0
 30
0.0
 11
225.00622558594921
 21
-243.2996020484976
 31
0.0
  0
LINE
  5
88
  8
DIMNSIONS
  6
CONTINUOUS
 62
     7
 10
200.00000000001171
 20
-250.0
 30
0.0
 11
225.00622558594921
 21
-256.7003979515024
 31
0.0
  0
LINE
  5
89
  8
DIMNSIONS
  6
CONTINUOUS
 62
     7
 10
643.0000000000116
 20
-250.0
 30
0.0
 11
617.99377441407421
 21
-256.7003979515024
 31
0.0
  0
LINE
  5
8A
  8
DIMNSIONS
  6
CONTINUOUS
 62
     7
 10
643.0000000000116
 20
-250.0
 30
0.0
 11
617.99377441407421
 21
-243.2996020484976
 31
0.0
  0
TEXT
  5
8B
  8
DIMNSIONS
 62
     7
 10
398.54166666666657
 20
-240.06111111111099
 30
0.0
 40
27.147352430555561
  1
443
 41
0.7
 11
398.54166666666657
 21
-212.91375868055539
 31
0.0
 73
     3
  0
LINE
  5
8C
  8
DIMNSIONS
  6
CONTINUOUS
 62
     7
 10
180.0
 20
500.0
 30
0.0
 11
30.0
 21
500.0
 31
0.0
  0
LINE
  5
8D
  8
DIMNSIONS
  6
CONTINUOUS
 62
     7
 10
180.0
 20
652.0
 30
0.0
 11
30.0
 21
652.0
 31
0.0
  0
LINE
  5
8E
  8
DIMNSIONS
  6
CONTINUOUS
 62
     7
 10
50.0
 20
500.0
 30
0.0
 11
50.0
 21
652.0
 31
0.0
  0
LINE
  5
8F
  8
DIMNSIONS
  6
CONTINUOUS
 62
     7
 10
50.0
 20
500.0
 30
0.0
 11
43.299602048497533
 21
525.0062255859375
 31
0.0
  0
LINE
  5
90
  8
DIMNSIONS
  6
CONTINUOUS
 62
     7
 10
50.0
 20
500.0
 30
0.0
 11
56.70039795150246
 21
525.0062255859375
 31
0.0
  0
LINE
  5
91
  8
DIMNSIONS
  6
CONTINUOUS
 62
     7
 10
50.0
 20
652.0
 30
0.0
 11
56.70039795150246
 21
626.9937744140625
 31
0.0
  0
LINE
  5
92
  8
DIMNSIONS
  6
CONTINUOUS
 62
     7
 10
50.0
 20
652.0
 30
0.0
 11
43.299602048497533
 21
626.9937744140625
 31
0.0
  0
TEXT
  5
93
  8
DIMNSIONS
 62
     7
 10
40.061111111111138
 20
549.54166666666652
 30
0.0
 40
27.147352430555561
  1
152
 50
90.0
 41
0.7
 11
12.91375868055558
 21
549.54166666666652
 31
0.0
 73
     3
  0
LINE
  5
94
  8
DIMNSIONS
  6
CONTINUOUS
 62
     7
 10
956.32879227876185
 20
362.5259201423986
 30
0.0
 11
968.03383731284873
 21
415.3239663134006
 31
0.0
  0
LINE
  5
95
  8
DIMNSIONS
  6
CONTINUOUS
 62
     7
 10
963.53735133862767
 20
349.90746772934261
 30
0.0
 11
977.57109765974803
 21
413.20960659825681
 31
0.0
  0
LINE
  5
96
  8
DIMNSIONS
  6
CONTINUOUS
 62
     7
 10
973.24230538098584
 20
393.68368645585821
 30
0.0
 11
963.70504503408631
 21
395.798046171002
 31
0.0
  0
LINE
  5
97
  8
DIMNSIONS
  6
CONTINUOUS
 62
     7
 10
963.70504503408631
 20
395.798046171002
 30
0.0
 11
914.89024467808974
 21
406.62002686790709
 31
0.0
  0
LINE
  5
98
  8
DIMNSIONS
  6
CONTINUOUS
 62
     7
 10
963.70504503408631
 20
395.798046171002
 30
0.0
 11
937.83246580616844
 21
394.8945557956269
 31
0.0
  0
LINE
  5
99
  8
DIMNSIONS
  6
CONTINUOUS
 62
     7
 10
963.70504503408631
 20
395.798046171002
 30
0.0
 11
940.84698897359647
 21
407.95189016781131
 31
0.0
  0
LINE
  5
9A
  8
DIMNSIONS
  6
CONTINUOUS
 62
     7
 10
973.24230538098584
 20
393.68368645585821
 30
0.0
 11
1032.1265702144201
 21
380.62935922863232
 31
0.0
  0
LINE
  5
9B
  8
DIMNSIONS
  6
CONTINUOUS
 62
     7
 10
973.24230538098584
 20
393.68368645585821
 30
0.0
 11
999.09517600852803
 21
395.03857799353938
 31
0.0
  0
LINE
  5
9C
  8
DIMNSIONS
  6
CONTINUOUS
 62
     7
 10
973.24230538098584
 20
393.68368645585821
 30
0.0
 11
996.30899387403031
 21
381.93062163309168
 31
0.0
  0
TEXT
  5
9D
  8
DIMNSIONS
 62
     7
 10
999.83618590399647
 20
397.9681653688798
 30
0.0
 40
27.147352430555561
  1
10
 50
347.5
 41
0.7
 11
1005.711948383507
 21
424.47201715070872
 31
0.0
 73
     3
  0
LINE
  5
9E
  8
DIMNSIONS
  6
CONTINUOUS
 62
     7
 10
800.0
 20
-120.0
 30
0.0
 11
800.0
 21
-270.0
 31
0.0
  0
LINE
  5
9F
  8
DIMNSIONS
  6
CONTINUOUS
 62
     7
 10
854.0
 20
-120.0
 30
0.0
 11
854.0
 21
-270.0
 31
0.0
  0
LINE
  5
A0
  8
DIMNSIONS
  6
CONTINUOUS
 62
     7
 10
800.0
 20
-250.0
 30
0.0
 11
854.0
 21
-250.0
 31
0.0
  0
LINE
  5
A1
  8
DIMNSIONS
  6
CONTINUOUS
 62
     7
 10
800.0
 20
-250.0
 30
0.0
 11
825.00622558593739
 21
-243.2996020484976
 31
0.0
  0
LINE
  5
A2
  8
DIMNSIONS
  6
CONTINUOUS
 62
     7
 10
800.0
 20
-250.0
 30
0.0
 11
825.00622558593739
 21
-256.7003979515024
 31
0.0
  0
LINE
  5
A3
  8
DIMNSIONS
  6
CONTINUOUS
 62
     7
 10
854.0
 20
-250.0
 30
0.0
 11
828.99377441406239
 21
-256.7003979515024
 31
0.0
  0
LINE
  5
A4
  8
DIMNSIONS
  6
CONTINUOUS
 62
     7
 10
854.0
 20
-250.0
 30
0.0
 11
828.99377441406239
 21
-243.2996020484976
 31
0.0
  0
TEXT
  5
A5
  8
DIMNSIONS
 62
     7
 10
809.3611111111112
 20
-240.06111111111099
 30
0.0
 40
27.147352430555561
  1
54
 41
0.7
 11
809.3611111111112
 21
-212.91375868055539
 31
0.0
 73
     3
  0
LINE
  5
A6
  8
DIMNSIONS
  6
CONTINUOUS
 62
     7
 10
783.0
 20
287.0
 30
0.0
 11
783.0
 21
420.0
 31
0.0
  0
LINE
  5
A7
  8
DIMNSIONS
  6
CONTINUOUS
 62
     7
 10
800.0
 20
363.0
 30
0.0
 11
800.0
 21
420.0
 31
0.0
  0
LINE
  5
A8
  8
DIMNSIONS
  6
CONTINUOUS
 62
     7
 10
800.0
 20
400.0
 30
0.0
 11
783.0
 21
400.0
 31
0.0
  0
LINE
  5
A9
  8
DIMNSIONS
  6
CONTINUOUS
 62
     7
 10
783.0
 20
400.0
 30
0.0
 11
733.0
 21
400.0
 31
0.0
  0
LINE
  5
AA
  8
DIMNSIONS
  6
CONTINUOUS
 62
     7
 10
783.0
 20
400.0
 30
0.0
 11
757.99377441406239
 21
393.2996020484976
 31
0.0
  0
LINE
  5
AB
  8
DIMNSIONS
  6
CONTINUOUS
 62
     7
 10
783.0
 20
400.0
 30
0.0
 11
757.99377441406239
 21
406.70039795150251
 31
0.0
  0
LINE
  5
AC
  8
DIMNSIONS
  6
CONTINUOUS
 62
     7
 10
800.0
 20
400.0
 30
0.0
 11
860.27777777777771
 21
400.0
 31
0.0
  0
LINE
  5
AD
  8
DIMNSIONS
  6
CONTINUOUS
 62
     7
 10
800.0
 20
400.0
 30
0.0
 11
825.00622558593739
 21
406.7003979515024
 31
0.0
  0
LINE
  5
AE
  8
DIMNSIONS
  6
CONTINUOUS
 62
     7
 10
800.0
 20
400.0
 30
0.0
 11
825.00622558593739
 21
393.2996020484976
 31
0.0
  0
TEXT
  5
AF
  8
DIMNSIONS
 62
     7
 10
825.0
 20
409.93888888888881
 30
0.0
 40
27.147352430555561
  1
17
 41
0.7
 11
825.0
 21
437.0862413194443
 31
0.0
 73
     3
  0
TEXT
  5
B0
  8
DATA
 62
     7
 10
1000.0
 20
-623.48200000000043
 30
0.0
 40
24.4326171875
  1
FX16 II
 41
0.7
 11
1000.0
 21
-599.04938281250031
 31
0.0
 73
     3
  0
TEXT
  5
B1
  8
DATA
 62
     7
 10
-299.99999999999989
 20
-703.61975749999999
 30
0.0
 40
16.288411458333329
  1
仕様および外観は予告なく変更されることがありますので、ご了承ください。
 41
0.7
 11
-299.99999999999989
 21
-687.33134604166673
 31
0.0
 73
     3
  0
TEXT
  5
B2
  8
DATA
 62
     7
 10
1000.0
 20
-562.19085749999999
 30
0.0
 40
24.4326171875
  1
Soundcraft
 41
0.7
 11
1000.0
 21
-537.75824031250011
 31
0.0
 73
     3
  0
LINE
  5
B3
  8
DATA
  6
CONTINUOUS
 62
     7
 10
200.00000000001171
 20
-100.0
 30
0.0
 11
200.00000000001171
 21
343.0
 31
0.0
  0
LINE
  5
B4
  8
DATA
  6
CONTINUOUS
 62
     7
 10
200.00000000001171
 20
-100.0
 30
0.0
 11
643.0000000000116
 21
-100.0
 31
0.0
  0
LINE
  5
B5
  8
DATA
  6
CONTINUOUS
 62
     7
 10
643.0000000000116
 20
-100.0
 30
0.0
 11
643.0000000000116
 21
343.0
 31
0.0
  0
LINE
  5
B6
  8
DATA
  6
CONTINUOUS
 62
     7
 10
200.00000000001171
 20
343.0
 30
0.0
 11
643.0000000000116
 21
343.0
 31
0.0
  0
LINE
  5
B7
  8
DATA
  6
CONTINUOUS
 62
     7
 10
200.00000000001171
 20
283.0
 30
0.0
 11
643.0000000000116
 21
283.0
 31
0.0
  0
LINE
  5
B8
  8
DATA
  6
CONTINUOUS
 62
     7
 10
225.50000000001171
 20
-100.0
 30
0.0
 11
225.50000000001171
 21
283.0
 31
0.0
  0
LINE
  5
B9
  8
DATA
  6
CONTINUOUS
 62
     7
 10
247.00000000001171
 20
-100.0
 30
0.0
 11
247.00000000001171
 21
283.0
 31
0.0
  0
LINE
  5
BA
  8
DATA
  6
CONTINUOUS
 62
     7
 10
268.5000000000116
 20
-100.0
 30
0.0
 11
268.5000000000116
 21
283.0
 31
0.0
  0
LINE
  5
BB
  8
DATA
  6
CONTINUOUS
 62
     7
 10
290.00000000001171
 20
-100.0
 30
0.0
 11
290.00000000001171
 21
283.0
 31
0.0
  0
LINE
  5
BC
  8
DATA
  6
CONTINUOUS
 62
     7
 10
311.50000000001171
 20
-100.0
 30
0.0
 11
311.50000000001171
 21
283.0
 31
0.0
  0
LINE
  5
BD
  8
DATA
  6
CONTINUOUS
 62
     7
 10
333.0000000000116
 20
-100.0
 30
0.0
 11
333.0000000000116
 21
283.0
 31
0.0
  0
LINE
  5
BE
  8
DATA
  6
CONTINUOUS
 62
     7
 10
354.50000000001171
 20
-100.0
 30
0.0
 11
354.50000000001171
 21
283.0
 31
0.0
  0
LINE
  5
BF
  8
DATA
  6
CONTINUOUS
 62
     7
 10
376.00000000001171
 20
-100.0
 30
0.0
 11
376.00000000001171
 21
283.0
 31
0.0
  0
LINE
  5
C0
  8
DATA
  6
CONTINUOUS
 62
     7
 10
397.5000000000116
 20
-100.0
 30
0.0
 11
397.5000000000116
 21
283.0
 31
0.0
  0
LINE
  5
C1
  8
DATA
  6
CONTINUOUS
 62
     7
 10
419.0000000000116
 20
-100.0
 30
0.0
 11
419.0000000000116
 21
283.0
 31
0.0
  0
LINE
  5
C2
  8
DATA
  6
CONTINUOUS
 62
     7
 10
440.5000000000116
 20
-100.0
 30
0.0
 11
440.5000000000116
 21
283.0
 31
0.0
  0
LINE
  5
C3
  8
DATA
  6
CONTINUOUS
 62
     7
 10
462.0000000000116
 20
-100.0
 30
0.0
 11
462.0000000000116
 21
283.0
 31
0.0
  0
LINE
  5
C4
  8
DATA
  6
CONTINUOUS
 62
     7
 10
483.5000000000116
 20
-100.0
 30
0.0
 11
483.5000000000116
 21
283.0
 31
0.0
  0
LINE
  5
C5
  8
DATA
  6
CONTINUOUS
 62
     7
 10
505.00000000001171
 20
-100.0
 30
0.0
 11
505.00000000001171
 21
283.0
 31
0.0
  0
LINE
  5
C6
  8
DATA
  6
CONTINUOUS
 62
     7
 10
526.5000000000116
 20
-100.0
 30
0.0
 11
526.5000000000116
 21
283.0
 31
0.0
  0
LINE
  5
C7
  8
DATA
  6
CONTINUOUS
 62
     7
 10
548.0000000000116
 20
-100.0
 30
0.0
 11
548.0000000000116
 21
283.0
 31
0.0
  0
LINE
  5
C8
  8
DATA
  6
CONTINUOUS
 62
     7
 10
203.50000000001171
 20
-100.0
 30
0.0
 11
203.50000000001171
 21
283.0
 31
0.0
  0
LINE
  5
C9
  8
DATA
  6
CONTINUOUS
 62
     7
 10
800.0
 20
-100.0
 30
0.0
 11
800.0
 21
343.0
 31
0.0
  0
LINE
  5
CA
  8
DATA
  6
CONTINUOUS
 62
     7
 10
800.0
 20
343.0
 30
0.0
 11
952.0
 21
343.0
 31
0.0
  0
LINE
  5
CB
  8
DATA
  6
CONTINUOUS
 62
     7
 10
800.0
 20
-100.0
 30
0.0
 11
854.0
 21
-100.0
 31
0.0
  0
LINE
  5
CC
  8
DATA
  6
CONTINUOUS
 62
     7
 10
200.0
 20
500.0
 30
0.0
 11
643.0
 21
500.0
 31
0.0
  0
LINE
  5
CD
  8
DATA
  6
CONTINUOUS
 62
     7
 10
200.0
 20
652.0
 30
0.0
 11
643.0
 21
652.0
 31
0.0
  0
LINE
  5
CE
  8
DATA
  6
CONTINUOUS
 62
     7
 10
200.0
 20
500.0
 30
0.0
 11
200.0
 21
652.0
 31
0.0
  0
LINE
  5
CF
  8
DATA
  6
CONTINUOUS
 62
     7
 10
643.0
 20
500.0
 30
0.0
 11
643.0
 21
652.0
 31
0.0
  0
LINE
  5
D0
  8
DATA
  6
CONTINUOUS
 62
     7
 10
854.0
 20
-100.0
 30
0.0
 11
952.0
 21
343.0
 31
0.0
  0
LINE
  5
D1
  8
DATA
  6
CONTINUOUS
 62
     7
 10
869.95608386860272
 20
-73.07606985927589
 30
0.0
 11
860.63958360583683
 21
-69.986372067493107
 31
0.0
  0
LINE
  5
D2
  8
DATA
  6
CONTINUOUS
 62
     7
 10
866.06814005151091
 20
-90.651162828373245
 30
0.0
 11
856.31964603127165
 21
-89.514253144353788
 31
0.0
  0
LINE
  5
D3
  8
DATA
  6
CONTINUOUS
 62
     7
 10
866.06814005151091
 20
-90.651162828373245
 30
0.0
 11
869.95608386860272
 21
-73.07606985927589
 31
0.0
  0
LINE
  5
D4
  8
DATA
  6
CONTINUOUS
 62
     7
 10
959.20855905986548
 20
330.38154758694378
 30
0.0
 11
955.3247175921407
 21
312.82499891141231
 31
0.0
  0
LINE
  5
D5
  8
DATA
  6
CONTINUOUS
 62
     7
 10
949.89453040876344
 20
333.48241807226623
 30
0.0
 11
959.20855905986571
 21
330.3815475869439
 31
0.0
  0
LINE
  5
D6
  8
DATA
  6
CONTINUOUS
 62
     7
 10
945.57566002642216
 20
313.95936113984629
 30
0.0
 11
955.3247175921407
 21
312.82499891141231
 31
0.0
  0
LINE
  5
D7
  8
DATA
  6
CONTINUOUS
 62
     7
 10
210.0
 20
652.0
 30
0.0
 11
211.0
 21
660.0
 31
0.0
  0
LINE
  5
D8
  8
DATA
  6
CONTINUOUS
 62
     7
 10
230.0
 20
652.0
 30
0.0
 11
229.0
 21
660.0
 31
0.0
  0
LINE
  5
D9
  8
DATA
  6
CONTINUOUS
 62
     7
 10
211.0
 20
660.0
 30
0.0
 11
229.0
 21
660.0
 31
0.0
  0
LINE
  5
DA
  8
DATA
  6
CONTINUOUS
 62
     7
 10
613.0
 20
652.0
 30
0.0
 11
614.0
 21
660.0
 31
0.0
  0
LINE
  5
DB
  8
DATA
  6
CONTINUOUS
 62
     7
 10
633.0
 20
652.0
 30
0.0
 11
632.0
 21
660.0
 31
0.0
  0
LINE
  5
DC
  8
DATA
  6
CONTINUOUS
 62
     7
 10
614.0
 20
660.0
 30
0.0
 11
632.0
 21
660.0
 31
0.0
  0
ARC
  5
DD
  8
DATA
  6
CONTINUOUS
 62
     7
 10
643.40000000001146
 20
314.0
 30
0.0
 40
2.6000000000000512
 50
270.00000000000119
 51
89.999999999998735
  0
LINE
  5
DE
  8
DATA
  6
CONTINUOUS
 62
     7
 10
643.40000000001146
 20
316.60000000000002
 30
0.0
 11
643.0000000000116
 21
316.60000000000002
 31
0.0
  0
LINE
  5
DF
  8
DATA
  6
CONTINUOUS
 62
     7
 10
643.40000000001146
 20
311.39999999999998
 30
0.0
 11
643.0000000000116
 21
311.39999999999998
 31
0.0
  0
ARC
  5
E0
  8
DATA
  6
CONTINUOUS
 62
     7
 10
643.40000000001146
 20
208.0
 30
0.0
 40
2.6000000000000218
 50
270.00000000000119
 51
89.999999999998735
  0
LINE
  5
E1
  8
DATA
  6
CONTINUOUS
 62
     7
 10
643.40000000001146
 20
210.59999999999999
 30
0.0
 11
643.0000000000116
 21
210.59999999999999
 31
0.0
  0
LINE
  5
E2
  8
DATA
  6
CONTINUOUS
 62
     7
 10
643.40000000001146
 20
205.40000000000001
 30
0.0
 11
643.0000000000116
 21
205.40000000000001
 31
0.0
  0
ARC
  5
E3
  8
DATA
  6
CONTINUOUS
 62
     7
 10
643.40000000001146
 20
60.0
 30
0.0
 40
2.6000000000000218
 50
270.00000000000119
 51
89.999999999998735
  0
LINE
  5
E4
  8
DATA
  6
CONTINUOUS
 62
     7
 10
643.40000000001146
 20
62.600000000000009
 30
0.0
 11
643.0000000000116
 21
62.600000000000009
 31
0.0
  0
LINE
  5
E5
  8
DATA
  6
CONTINUOUS
 62
     7
 10
643.40000000001146
 20
57.399999999999977
 30
0.0
 11
643.0000000000116
 21
57.399999999999977
 31
0.0
  0
ARC
  5
E6
  8
DATA
  6
CONTINUOUS
 62
     7
 10
643.40000000001146
 20
-74.0
 30
0.0
 40
2.6000000000000218
 50
270.00000000000119
 51
89.999999999998735
  0
LINE
  5
E7
  8
DATA
  6
CONTINUOUS
 62
     7
 10
643.40000000001146
 20
-71.399999999999963
 30
0.0
 11
643.0000000000116
 21
-71.399999999999963
 31
0.0
  0
LINE
  5
E8
  8
DATA
  6
CONTINUOUS
 62
     7
 10
643.40000000001146
 20
-76.600000000000023
 30
0.0
 11
643.0000000000116
 21
-76.600000000000023
 31
0.0
  0
ARC
  5
E9
  8
DATA
  6
CONTINUOUS
 62
     7
 10
199.6000000000117
 20
314.0
 30
0.0
 40
2.599999999999965
 50
90.0
 51
270.0
  0
LINE
  5
EA
  8
DATA
  6
CONTINUOUS
 62
     7
 10
199.6000000000117
 20
316.60000000000002
 30
0.0
 11
200.00000000001171
 21
316.60000000000002
 31
0.0
  0
LINE
  5
EB
  8
DATA
  6
CONTINUOUS
 62
     7
 10
199.6000000000117
 20
311.39999999999998
 30
0.0
 11
200.00000000001171
 21
311.39999999999998
 31
0.0
  0
ARC
  5
EC
  8
DATA
  6
CONTINUOUS
 62
     7
 10
199.6000000000117
 20
208.0
 30
0.0
 40
2.6000000000000218
 50
90.0
 51
270.0
  0
LINE
  5
ED
  8
DATA
  6
CONTINUOUS
 62
     7
 10
199.6000000000117
 20
210.59999999999999
 30
0.0
 11
200.00000000001171
 21
210.59999999999999
 31
0.0
  0
LINE
  5
EE
  8
DATA
  6
CONTINUOUS
 62
     7
 10
199.6000000000117
 20
205.40000000000001
 30
0.0
 11
200.00000000001171
 21
205.40000000000001
 31
0.0
  0
ARC
  5
EF
  8
DATA
  6
CONTINUOUS
 62
     7
 10
199.6000000000117
 20
60.0
 30
0.0
 40
2.6000000000000218
 50
90.0
 51
270.0
  0
LINE
  5
F0
  8
DATA
  6
CONTINUOUS
 62
     7
 10
199.6000000000117
 20
62.600000000000009
 30
0.0
 11
200.00000000001171
 21
62.600000000000009
 31
0.0
  0
LINE
  5
F1
  8
DATA
  6
CONTINUOUS
 62
     7
 10
199.6000000000117
 20
57.399999999999977
 30
0.0
 11
200.00000000001171
 21
57.399999999999977
 31
0.0
  0
ARC
  5
F2
  8
DATA
  6
CONTINUOUS
 62
     7
 10
199.6000000000117
 20
-74.0
 30
0.0
 40
2.6000000000000218
 50
90.0
 51
270.0
  0
LINE
  5
F3
  8
DATA
  6
CONTINUOUS
 62
     7
 10
199.6000000000117
 20
-71.399999999999963
 30
0.0
 11
200.00000000001171
 21
-71.399999999999963
 31
0.0
  0
LINE
  5
F4
  8
DATA
  6
CONTINUOUS
 62
     7
 10
199.6000000000117
 20
-76.600000000000023
 30
0.0
 11
200.00000000001171
 21
-76.600000000000023
 31
0.0
  0
LINE
  5
F5
  8
DATA
  6
CONTINUOUS
 62
     7
 10
783.0
 20
257.0
 30
0.0
 11
783.0
 21
267.0
 31
0.0
  0
LINE
  5
F6
  8
DATA
  6
CONTINUOUS
 62
     7
 10
783.0
 20
267.0
 30
0.0
 11
800.0
 21
267.0
 31
0.0
  0
LINE
  5
F7
  8
DATA
  6
CONTINUOUS
 62
     7
 10
783.0
 20
257.0
 30
0.0
 11
800.0
 21
257.0
 31
0.0
  0
CIRCLE
  5
F8
  8
DATA
  6
CONTINUOUS
 62
     7
 10
809.0
 20
-73.980000000000032
 30
0.0
 40
2.6000000000000218
  0
LINE
  5
F9
  8
DATA
  6
CONTINUOUS
 62
     7
 10
807.672094380864
 20
-73.980000000000032
 30
0.0
 11
810.32790561913407
 21
-73.980000000000032
 31
0.0
  0
LINE
  5
FA
  8
DATA
  6
CONTINUOUS
 62
     7
 10
809.0
 20
-75.307905619136122
 30
0.0
 11
809.0
 21
-72.652094380873791
 31
0.0
  0
CIRCLE
  5
FB
  8
DATA
  6
CONTINUOUS
 62
     7
 10
809.0
 20
60.100000000000009
 30
0.0
 40
2.6000000000000218
  0
LINE
  5
FC
  8
DATA
  6
CONTINUOUS
 62
     7
 10
807.672094380864
 20
60.100000000000009
 30
0.0
 11
810.32790561913407
 21
60.100000000000009
 31
0.0
  0
LINE
  5
FD
  8
DATA
  6
CONTINUOUS
 62
     7
 10
809.0
 20
58.772094380863898
 30
0.0
 11
809.0
 21
61.42790561912625
 31
0.0
  0
CIRCLE
  5
FE
  8
DATA
  6
CONTINUOUS
 62
     7
 10
809.0
 20
207.90000000000001
 30
0.0
 40
2.6000000000000218
  0
LINE
  5
FF
  8
DATA
  6
CONTINUOUS
 62
     7
 10
807.672094380864
 20
207.90000000000001
 30
0.0
 11
810.32790561913407
 21
207.90000000000001
 31
0.0
  0
LINE
  5
100
  8
DATA
  6
CONTINUOUS
 62
     7
 10
809.0
 20
206.5720943808638
 30
0.0
 11
809.0
 21
209.2279056191262
 31
0.0
  0
CIRCLE
  5
101
  8
DATA
  6
CONTINUOUS
 62
     7
 10
809.0
 20
314.2000000000001
 30
0.0
 40
2.6000000000000218
  0
LINE
  5
102
  8
DATA
  6
CONTINUOUS
 62
     7
 10
807.672094380864
 20
314.2000000000001
 30
0.0
 11
810.32790561913407
 21
314.2000000000001
 31
0.0
  0
LINE
  5
103
  8
DATA
  6
CONTINUOUS
 62
     7
 10
809.0
 20
312.87209438086393
 30
0.0
 11
809.0
 21
315.52790561912622
 31
0.0
  0
CIRCLE
  5
104
  8
DATA
  6
CONTINUOUS
 62
     7
 10
941.76004681907534
 20
328.35408919235118
 30
0.0
 40
2.6000000000000218
  0
LINE
  5
105
  8
DATA
  6
CONTINUOUS
 62
     7
 10
940.43214119993922
 20
328.35408919235118
 30
0.0
 11
943.08795243820953
 21
328.35408919235118
 31
0.0
  0
LINE
  5
106
  8
DATA
  6
CONTINUOUS
 62
     7
 10
941.76004681907534
 20
327.02618357321501
 30
0.0
 11
941.76004681907534
 21
329.6819948114773
 31
0.0
  0
CIRCLE
  5
107
  8
DATA
  6
CONTINUOUS
 62
     7
 10
895.32071789251063
 20
118.4293676161461
 30
0.0
 40
2.6000000000000218
  0
LINE
  5
108
  8
DATA
  6
CONTINUOUS
 62
     7
 10
893.99281227337462
 20
118.4293676161461
 30
0.0
 11
896.64862351164504
 21
118.4293676161461
 31
0.0
  0
LINE
  5
109
  8
DATA
  6
CONTINUOUS
 62
     7
 10
895.32071789251063
 20
117.10146199701001
 30
0.0
 11
895.32071789251063
 21
119.75727323527229
 31
0.0
  0
CIRCLE
  5
10A
  8
DATA
  6
CONTINUOUS
 62
     7
 10
856.71985954276988
 20
-56.062267577070408
 30
0.0
 40
2.6000000000000218
  0
LINE
  5
10B
  8
DATA
  6
CONTINUOUS
 62
     7
 10
855.39195392363365
 20
-56.062267577070408
 30
0.0
 11
858.04776516190452
 21
-56.062267577070408
 31
0.0
  0
LINE
  5
10C
  8
DATA
  6
CONTINUOUS
 62
     7
 10
856.71985954276988
 20
-57.390173196206547
 30
0.0
 11
856.71985954276988
 21
-54.734361957944202
 31
0.0
  0
CIRCLE
  5
10D
  8
DATA
  6
CONTINUOUS
 62
     7
 10
847.0
 20
-9.0
 30
0.0
 40
2.6000000000000218
  0
LINE
  5
10E
  8
DATA
  6
CONTINUOUS
 62
     7
 10
845.672094380864
 20
-9.0
 30
0.0
 11
848.32790561913419
 21
-9.0
 31
0.0
  0
LINE
  5
10F
  8
DATA
  6
CONTINUOUS
 62
     7
 10
847.0
 20
-10.327905619136111
 30
0.0
 11
847.0
 21
-7.6720943808737738
 31
0.0
  0
CIRCLE
  5
110
  8
DATA
  6
CONTINUOUS
 62
     7
 10
907.0
 20
293.0
 30
0.0
 40
2.6000000000000218
  0
LINE
  5
111
  8
DATA
  6
CONTINUOUS
 62
     7
 10
905.672094380864
 20
293.0
 30
0.0
 11
908.32790561913441
 21
293.0
 31
0.0
  0
LINE
  5
112
  8
DATA
  6
CONTINUOUS
 62
     7
 10
907.0
 20
291.67209438086388
 30
0.0
 11
907.0
 21
294.32790561912623
 31
0.0
  0
ENDSEC
  0
EOF
